Follow GotFuturama on Twitter and Facebook!

   
Can't Get Enough Futurama! Happy Fry
Can't get enough Futurama - morefuturama
Futurama Information
»  Futurama News
»  Articles
»  Episode Guide
»  Character Bios
»  Encyclopedia
»  Episode Capsules
»  Freeze Frame
»  Comic Capsules
»  Futurama FAQ
»  Futurama Staff
»  Lists & References
»  Merchandise
»  TV Listings
»  Web News
»  Futurama Links
»  What's Futurama
»  Behind the Scenes
Futurama Multimedia
»  Ascii Art
»  Sounds & Quotes
»  Fan 3D Art
»  Animation & Video
»  Frame Grabs
»  Guitar Tabs
»  Nokia Stuff
»  Original Scans
»  Other Sounds
»  Promo Pics
Interactive
»  Alien Codecs
»  Comic Reviews
»  Episode Reviews
»  Episode Trivia
»  Random Trivia
»  Fan Art
»  Fan Fiction
»  Futurama Chat
»  Guest Book
»  Message Board
Futurama Desktop
»  Futurama Fonts
»  Icons & Cursors
»  ICQ+ Scheme
»  PocketPC Themes
»  Screen Savers
»  Software
»  Wallpapers
»  Winamp Skins
Futurama Games
»  CGEF Games
»  Official Game
»  Flash Games
»  Game Addons
»  Submitted Games
»  Guess the Pic!
Contact
»  Privacy Statement

   Buddies:
  Planet Express Employee Lounge - The Futurama Message Board
  The Infosphere - Futurama Wiki
  The Futurama Point
  


   Support:
  



Guitar Tabs : Futurama Theme


Hear it


           AHHHHHA    AHHHHHHA  AHHHHHHA AHHHHA
          AHHHHHHHW  AHHHHHHHW  HHHHHHHW HHHHHW    
         AHW        AHE         HHH      HH        
         HH         HH    HHHA  HHHHHHH  HHHHA         
         WHA        WHA     HH  HHH      HHHHW           
          WHHHHHHHA  WHHHHHHHW  HHHHHHHA HH            
           WHHHHHW    WHHHHHW   WHHHHHHW WA       

                   http://www.gotfuturama.com



Futurama Theme - Guitar Tab

by Nicolas Denis



e[------------------------------------------------------------------------------]
B[---------------------------------------------------------------0--0-----------]
G[-----2-2--------------2-2----------------2-1---------------2-1----------------]
D[-2-2-----0-0-2-2--2-2-----0-0-5-5-4-2--2-----0--0-4-2-2--2----------5-5-4-4---]
A[------------------------------------------------------------------------------]
E[------------------------------------------------------------------------------]

              100% Correct
                 Mail me for comments @ tha_slughy@hotmail.com



TAB:

e------7-7-------5-5-|------7-7-------5-5-4---
B-7-7-------5-5------|-7-7-------5-5----------
G--------------------|------------------------
D--------------------|------------------------
A--------------------|------------------------
E--------------------|------------------------


e------7-6-------5-4-|------7-6----9-9-5-5-4-4
B-7-7-------5-5------|-7-7--------------------
G--------------------|------------------------
D--------------------|------------------------
A--------------------|------------------------
E--------------------|------------------------

If you have a second guitarist, (or just feel like playing something
a little more solid) here are the chords which can be played on top of
the melody. Strum each each chord only once.

Chords:

F# F# B B E E A A F# F# B B E E A A Ab
F# F# B Bb E E A Ab F# F# B Bb C# C# A A Ab Ab

Tabbed by Stephen Reid



Futurama - Xmas Song from A tale of two santa's


C						     F
We are free and fairly sober, with so many toys to build

       C						F
The machines are kinda tricky, probly someone will be killed

	G		 Am		  F				  C
But we gladly work for nothing, which is good because we don't intend to pay

C		G       F     C          G F C
The elves are back to work today, hooray!

C						      F
We have just a couple hours to make several billion gifts,

	   C						F
and the labour isn't easy, and you'll all work triple shifts

	  G 		  Am		 F				C
You can make the job go quicker if you turn up the controls to super speed

       C      G        F   C 	       G F C
It's back to work on Xmas eve, hooray!

		   D          A         G
And though you're cold, and sore, and ugly,

       C	 A 	   D
Your pride will mask the pain

	G      A     Fm		C
Let my happy smile warm your hearts

	    G		A    D
there's a toy lodged in my brain

	  C		F	      C		     F		 C	         F
We are getting awfuly tired, and we can't work any faster, and we're very 
very sorry,

	   C		   F		  G               Am
Why you selfish little bastards, do you want the kids to think

              F                          G
that santas just a crummy empty handed jerk?

	        F                C     G F C
Then shut your yaps and back to work

         C					      F
Now its very nearly Xmas and we've done the best we could,

	      C			 F		     C		       F
These toy soldiers are poorly painted, and they're made from inferior wood

	   G		   Am		F	      C
I should give you all a beating but I really have to fly

	G		   Am	       F	       C
If I weren't stuck here frozen I'd harpoon you in the eye

	  G		   Am		F		 C
Now it's back into our tennaments to drown ourselves in rye

     G		       Am		C			  F
You did the best you could I guess and some of these gorillas are okay

      C		 G	 F    C		  G F C
The elves have rescued Xmas day, hooray!

Chord list

     EADGBE

C  = 032010
F  = 133211
G  = 320033
Am = 002210
D  = XX0232
A  = 002220

Thats all the ones in the song i'm pretty sure


IRON MAN TAB


Chord list - All Barre chords

   B   D   E
  7   10  12
  9   12  14
  9   12  14
  8   11  13
  7   10  12
  7   10  12

p = pull off
/ = slide into

B D D/E

E ----------------------------------
B ----------------------------------
G ----------------------------------
D ----------------------------------
A --10p9--10p9--10p9----------------
E --------------------10--10/12--12-



By Stephen Reid: This is a cool little lick from TKOS when Fry is showing Leela
his 'time proof shelter. I don't know the actual song, if i did it'd be easier
to tab the rest.

E ----------------------------
B ----------------------------
G ----------------------------
D ----------------------------
A -----------5--5-----5--b6--5
E --3--/8--8--------8---------


By Stephen Reid:

This is a theme played in The Sting during Fry & Leela love scenes.

Put a capo on fret 6 and you can add harmony to this by strumming over the C shape.

E -----------------------6-----6---
B -----7-----6h7--7--9-----9-----7
G --6-----6------------------------
D ---------------------------------
A ---------------------------------
E ---------------------------------


By Stephen Reid:

The Bee Happy song 

C                                 Dm                              F   G     C
The landlord say your rent is late you may have to litigate don't worry bee happy

C                                    Dm
Ain't got not cash ain't got no style ladies vomit when I smile

         F             G                   C
But does Zoidberg worry pheh you wish bee happy

          F         G         C
Don't worry now Amy okay I'm happy

                          F   G      C
Take us home Bender don't worry bee happy!



By Stephen Reid:

Pretty Woman - The Cyberhouse Rules

Note: This isn't the whole song, but it is exactly what appears in the episode

Riff1
E ---------------
B ---------------
G ---------------
D --------------0
A -----------2---
E --0--0--4------

Riff2
E ------------------------
B ------------------------
G ------------------------
D --------------0--4--2--0
A -----------2------------
E --0--0--4---------------

Chord list

A    002220
F#m  244222
D    XX0232
E7   020100

Riff1 (X2)
Riff2 (X4)


       A              F#m                     A                   F#m
Pretty Woman, walking down the street, Pretty Woman, the kind i'd like to meet

       D                E7
Pretty Woman, I don't believe you, you're not the truth, no-one could look as
good


as you.

Riff2 (X5)    A  A
Oh, Oh Pretty Woman!


by Stephen Reid:

This is the main melody to the holophoner song Fry plays for Leela in
Parasites Lost. Well some of it. (Only a few people in the whole universe?)

again heavy vibrato at your discretion

Holophonor arr. for gtr.

         Rpt. for intro
E ------------------------------------------|
B ------------------------------------------|
G -----------------------------10-12-10-----|
D --/12~-/(14p12)--------12-14----------14--|
A ------------------------------------------|
E ------------------------------------------|


E ---------------------------------------------------------------------|
B ---------------------------------------------------------------------|
G -----10-14-10----10-/15-14-12-14--10----10-12-10-/13-12-10----10--14-|
D --12----------12---------------------12--------------------14--------|
A ---------------------------------------------------------------------|
E ---------------------------------------------------------------------|
                         X2
E ----------------------(-----------------)------------------------------|
B ----------------------(-----------------)------------------------------|
G 
--10--15--12--14--12--(15-14-12-------10)--------------------------------------|
D 
----------------------(---------10-12---)------------------------------------|
A ----------------------(-----------------)-----------------------------|
E ----------------------(-----------------)------------------------------|

From the Fry & Leela holding hands scene in Xmas story:
Piano arr. for gtr.

E -10h12--8-----8h10--7-----8--8--7--------|
B -----------8-----------8-----------10--8-|
G -----------------------------------------|
D -----------------------------------------|
A -----------------------------------------|
E -----------------------------------------|

Futurama Theme - Guitar Tab

by Andie Similon


 E -------------------------------------------------------------------------
 B -------------------------------------------------------------------------
 G ----7-7-------------7-7-------------7-7-6-----5-5-4-----7-6-9-9-5-5-4-4--
 D 7-7-7-7-5-5-7-7-7-7-7-7-5-5-7-7-7-7-7-7-6-5-5-5-5-4-7-7-7-6-9-9-5-5-4-4--
 A 7-7-5-5-5-5-7-7-7-7-5-5-5-5-7-7-7-7-5-5-4-5-5-3-3-2-7-7-5-4-7-7-3-3-2-2--
 E 5-5-----3-3-5-5-5-5-----3-3-5-5-5-5-------3-3-------5-5------------------

THIS IS THAT COOL LITTLE SURFER RIFF FROM THE START OF FRY AND THE SLURM 
FACTORY.

TABBED BY ELLIOTT GILES

MAIN RIFF X 4

e|------------------------------------------------------------------
B|------------------------------------------------------------------
G|------------------------------------------------------------------
D|-----------2-2-2------0-0------2-2-2-----------------------------
A|---0-0-4-5-------5-4------5-4---------5-4-------------------------
E|------------------------------------------------------------------

THEN

E|--------------------------------------------
B|--------------------------------------------
G|--------------------------------------------
D|-------6-7-9-9-9-7-6---0-0--4-5-7-7-5-4-----
A|---7-7--------------------------------------
E|--------------------------------------------

AND BACK TO THE MAIN RIFF, TO GET THAT SURFER FEEL PLAY ON THE BRIDGE PICK 
UPS
AND TURN UP YOUR TONE AND AD SOME CHORUS TO IT.







txt-Version

Futurama Mosh tab in Guitar Pro by SlaytanicMaggot

 

Legal notice: "Futurama" TM and copyright FOX, its related entities and the Curiosity Company. All rights reserved. Any reproduction, duplication or distribution of these materials in any form is expressly prohibited. Disclaimer: As a fan page, this web site and its content are not authorized by FOX.